Регистрация Вход Приветствую Вас
Меню сайта
 
 
 
 
 
 
 
 
 
 
 
 
 
 
 


Яндекс цитирования
 
 




You raise
the blade, You make the change
E|-2---------2-----2-------2---4------------4----4-------4----|
B|-3----3----------3---3-------5------5----------5---5--------|
G|-2-------2-------2-----2-----4---------4-------4-----4------|
D|-0--0---------0----0-------0-0---0-----------0-0-0--------0-|
A|------------------------------------------------------------|
E|------------------------------------------------------------|
You re-arrange me till I`m sane
E|-3-------------3------------------2-------2----0-----0-------|
B|-2-------2-----2------------2-----3---3--------3-3-----------|
G|-2---2-2-------2------2---2-------2-----2------2--------2--2-|
D|-2-------------2------------------0-0-------0--0---0----0--0-|
A|---0--------0-------0----------0-----------------------------|
E|-------------------------------------------------------------|
You lock the door And throw away the key There`s
E|-2-----------2---2-----------2----4---------4--4---------4---|
B|-3-----3---------3-----3----------5----5-------5-----5-------|
G|-2--------2------2--------2-------4-------4----4-------4-----|
D|-0--0----------0-0--0-----------0-0--0---------0--0--------0-|
A|-------------------------------------------------------------|
E|-------------------------------------------------------------|
someone in my head, but is`s not me
E|-3-3----------3----------------2--2--------0--------0-------|
B|-2-------2----2----------2-----3--3--3--------3--------3----|
G|-2-----2------2----2--2--------2--2-----2--------2--------2-|
D|-2------------2-------2--------0--0-----0-------------------|
A|-0---0-----0--0--0----0-----0-----------0-------------------|
E|------------------------------------------------------------|
E|-2-----2--0---------2---------------|
B|-1-----------1----------1-----------|
G|-2--2------------2------------------|
D|-0----------------------------------|
A|------------------------------------|
E|----------------------------0--2--3-|
repeat chorus
outro: use chords at top.
D D G7/D G7/D D D G7/D G7/D D D
E/D E/D A7 A7 D Dsus2 D D E/D E/D
A7 A7 D Dsus2
Друзья сайта
 
Пресса о Supermax!
Albums




 
 
 
 
 
 
 
 
 
 
 
 


Партнеры
 




Kurt Hauenstein и Supermax. Посвящается памяти музыканта. 2008 - 2018 Хостинг от uCoz